ISO-10303-21;
HEADER;
/* Generated by software containing ST-Developer
 * from STEP Tools, Inc. (www.steptools.com) 
 */
/* OPTION: using custom schema-name function */

FILE_DESCRIPTION(
/* description */ (''),
/* implementation_level */ '2;1');

FILE_NAME(
/* name */ 'n 02 100 61xx 002nxc001-01.stp',
/* time_stamp */ '2021-04-20T13:16:46+02:00',
/* author */ (''),
/* organization */ (''),
/* preprocessor_version */ 'ST-DEVELOPER v16.7',
/* originating_system */ 'SIEMENS PLM Software NX 12.0',
/* authorisation */ '');

FILE_SCHEMA (('AUTOMOTIVE_DESIGN { 1 0 10303 214 3 1 1 1 }'));
ENDSEC;

DATA;
#10=SHAPE_REPRESENTATION_RELATIONSHIP('None',
'relationship between n 02 100 61xx 002nxc001-01-None and n 02 100 61x
x 002nxc001-01-None',#22,#11);
#11=ADVANCED_BREP_SHAPE_REPRESENTATION(
'n 02 100 61xx 002nxc001-01-None',(#32),#531);
#12=SHAPE_DEFINITION_REPRESENTATION(#13,#22);
#13=PRODUCT_DEFINITION_SHAPE('','',#14);
#14=PRODUCT_DEFINITION(' ','',#16,#15);
#15=PRODUCT_DEFINITION_CONTEXT('part definition',#21,'design');
#16=PRODUCT_DEFINITION_FORMATION_WITH_SPECIFIED_SOURCE(' ',' ',#18,
 .NOT_KNOWN.);
#17=PRODUCT_RELATED_PRODUCT_CATEGORY('part','',(#18));
#18=PRODUCT('n 02 100 61xx 002nxc001-01','n 02 100 61xx 002nxc001-01',
' ',(#19));
#19=PRODUCT_CONTEXT(' ',#21,'mechanical');
#20=APPLICATION_PROTOCOL_DEFINITION('international standard',
'automotive_design',2010,#21);
#21=APPLICATION_CONTEXT(
'core data for automotive mechanical design processes');
#22=SHAPE_REPRESENTATION('n 02 100 61xx 002nxc001-01-None',(#316),#531);
#23=PRESENTATION_LAYER_ASSIGNMENT('1','Layer 1',(#32));
#24=STYLED_ITEM('',(#25),#32);
#25=PRESENTATION_STYLE_ASSIGNMENT((#26));
#26=SURFACE_STYLE_USAGE(.BOTH.,#27);
#27=SURFACE_SIDE_STYLE('',(#28));
#28=SURFACE_STYLE_FILL_AREA(#29);
#29=FILL_AREA_STYLE('',(#30));
#30=FILL_AREA_STYLE_COLOUR('',#31);
#31=COLOUR_RGB('Medium Steel',0.596063172350652,0.666666666666667,0.686259250782025);
#32=MANIFOLD_SOLID_BREP('',#33);
#33=CLOSED_SHELL('',(#79,#80,#81,#82,#83,#84,#85,#86,#87,#88,#89,#90,#91,
#92,#93,#94,#95,#96,#97,#98,#99,#100,#101));
#34=LINE('',#504,#46);
#35=LINE('',#507,#47);
#36=LINE('',#509,#48);
#37=LINE('',#511,#49);
#38=LINE('',#513,#50);
#39=LINE('',#515,#51);
#40=LINE('',#517,#52);
#41=LINE('',#519,#53);
#42=LINE('',#521,#54);
#43=LINE('',#523,#55);
#44=LINE('',#525,#56);
#45=LINE('',#527,#57);
#46=VECTOR('',#427,1.);
#47=VECTOR('',#428,1.);
#48=VECTOR('',#429,1.);
#49=VECTOR('',#430,1.);
#50=VECTOR('',#433,1.);
#51=VECTOR('',#434,1.);
#52=VECTOR('',#435,1.);
#53=VECTOR('',#438,1.);
#54=VECTOR('',#439,1.);
#55=VECTOR('',#442,1.);
#56=VECTOR('',#443,1.);
#57=VECTOR('',#446,1.);
#58=FACE_OUTER_BOUND('',#173,.T.);
#59=FACE_OUTER_BOUND('',#180,.T.);
#60=FACE_OUTER_BOUND('',#181,.T.);
#61=FACE_OUTER_BOUND('',#182,.T.);
#62=FACE_OUTER_BOUND('',#183,.T.);
#63=CONICAL_SURFACE('',#334,2.1,59.);
#64=CONICAL_SURFACE('',#336,7.25,60.);
#65=CONICAL_SURFACE('',#338,7.25,30.46554491946);
#66=CONICAL_SURFACE('',#348,1.00000000000001,45.);
#67=VERTEX_LOOP('',#254);
#68=PLANE('',#324);
#69=PLANE('',#327);
#70=PLANE('',#331);
#71=PLANE('',#343);
#72=PLANE('',#346);
#73=PLANE('',#351);
#74=PLANE('',#352);
#75=PLANE('',#353);
#76=PLANE('',#354);
#77=PLANE('',#355);
#78=PLANE('',#356);
#79=ADVANCED_FACE('',(#110,#111),#102,.F.);
#80=ADVANCED_FACE('',(#112,#113),#103,.T.);
#81=ADVANCED_FACE('',(#114,#115),#68,.T.);
#82=ADVANCED_FACE('',(#116,#117),#69,.T.);
#83=ADVANCED_FACE('',(#118,#119),#104,.T.);
#84=ADVANCED_FACE('',(#120,#121),#70,.T.);
#85=ADVANCED_FACE('',(#122,#123),#105,.T.);
#86=ADVANCED_FACE('',(#124,#125),#63,.F.);
#87=ADVANCED_FACE('',(#126,#127),#64,.T.);
#88=ADVANCED_FACE('',(#128,#129),#106,.T.);
#89=ADVANCED_FACE('',(#130,#131),#65,.T.);
#90=ADVANCED_FACE('',(#132,#133),#107,.F.);
#91=ADVANCED_FACE('',(#134,#135),#71,.F.);
#92=ADVANCED_FACE('',(#136,#137),#108,.T.);
#93=ADVANCED_FACE('',(#58),#72,.T.);
#94=ADVANCED_FACE('',(#138,#139),#66,.T.);
#95=ADVANCED_FACE('',(#140,#141),#109,.T.);
#96=ADVANCED_FACE('',(#142,#143),#73,.T.);
#97=ADVANCED_FACE('',(#59),#74,.F.);
#98=ADVANCED_FACE('',(#60),#75,.F.);
#99=ADVANCED_FACE('',(#61),#76,.F.);
#100=ADVANCED_FACE('',(#62),#77,.F.);
#101=ADVANCED_FACE('',(#144,#145),#78,.T.);
#102=CYLINDRICAL_SURFACE('',#319,5.5);
#103=CYLINDRICAL_SURFACE('',#322,7.25);
#104=CYLINDRICAL_SURFACE('',#329,9.5);
#105=CYLINDRICAL_SURFACE('',#333,8.25);
#106=CYLINDRICAL_SURFACE('',#337,9.5);
#107=CYLINDRICAL_SURFACE('',#341,4.6);
#108=CYLINDRICAL_SURFACE('',#344,6.731);
#109=CYLINDRICAL_SURFACE('',#350,2.00000000000001);
#110=FACE_BOUND('',#146,.T.);
#111=FACE_BOUND('',#147,.T.);
#112=FACE_BOUND('',#148,.T.);
#113=FACE_BOUND('',#149,.T.);
#114=FACE_BOUND('',#150,.T.);
#115=FACE_BOUND('',#151,.T.);
#116=FACE_BOUND('',#152,.T.);
#117=FACE_BOUND('',#153,.T.);
#118=FACE_BOUND('',#154,.T.);
#119=FACE_BOUND('',#155,.T.);
#120=FACE_BOUND('',#156,.T.);
#121=FACE_BOUND('',#157,.T.);
#122=FACE_BOUND('',#158,.T.);
#123=FACE_BOUND('',#159,.T.);
#124=FACE_BOUND('',#160,.T.);
#125=FACE_BOUND('',#67,.T.);
#126=FACE_BOUND('',#161,.T.);
#127=FACE_BOUND('',#162,.T.);
#128=FACE_BOUND('',#163,.T.);
#129=FACE_BOUND('',#164,.T.);
#130=FACE_BOUND('',#165,.T.);
#131=FACE_BOUND('',#166,.T.);
#132=FACE_BOUND('',#167,.T.);
#133=FACE_BOUND('',#168,.T.);
#134=FACE_BOUND('',#169,.T.);
#135=FACE_BOUND('',#170,.T.);
#136=FACE_BOUND('',#171,.T.);
#137=FACE_BOUND('',#172,.T.);
#138=FACE_BOUND('',#174,.T.);
#139=FACE_BOUND('',#175,.T.);
#140=FACE_BOUND('',#176,.T.);
#141=FACE_BOUND('',#177,.T.);
#142=FACE_BOUND('',#178,.T.);
#143=FACE_BOUND('',#179,.T.);
#144=FACE_BOUND('',#184,.T.);
#145=FACE_BOUND('',#185,.T.);
#146=EDGE_LOOP('',(#186));
#147=EDGE_LOOP('',(#187));
#148=EDGE_LOOP('',(#188));
#149=EDGE_LOOP('',(#189));
#150=EDGE_LOOP('',(#190));
#151=EDGE_LOOP('',(#191));
#152=EDGE_LOOP('',(#192));
#153=EDGE_LOOP('',(#193));
#154=EDGE_LOOP('',(#194));
#155=EDGE_LOOP('',(#195));
#156=EDGE_LOOP('',(#196));
#157=EDGE_LOOP('',(#197));
#158=EDGE_LOOP('',(#198));
#159=EDGE_LOOP('',(#199));
#160=EDGE_LOOP('',(#200));
#161=EDGE_LOOP('',(#201));
#162=EDGE_LOOP('',(#202));
#163=EDGE_LOOP('',(#203));
#164=EDGE_LOOP('',(#204));
#165=EDGE_LOOP('',(#205));
#166=EDGE_LOOP('',(#206));
#167=EDGE_LOOP('',(#207));
#168=EDGE_LOOP('',(#208));
#169=EDGE_LOOP('',(#209));
#170=EDGE_LOOP('',(#210));
#171=EDGE_LOOP('',(#211));
#172=EDGE_LOOP('',(#212));
#173=EDGE_LOOP('',(#213));
#174=EDGE_LOOP('',(#214));
#175=EDGE_LOOP('',(#215));
#176=EDGE_LOOP('',(#216));
#177=EDGE_LOOP('',(#217));
#178=EDGE_LOOP('',(#218,#219,#220,#221));
#179=EDGE_LOOP('',(#222));
#180=EDGE_LOOP('',(#223,#224,#225,#226));
#181=EDGE_LOOP('',(#227,#228,#229,#230));
#182=EDGE_LOOP('',(#231,#232,#233,#234));
#183=EDGE_LOOP('',(#235,#236,#237,#238));
#184=EDGE_LOOP('',(#239,#240,#241,#242));
#185=EDGE_LOOP('',(#243));
#186=ORIENTED_EDGE('',*,*,#270,.F.);
#187=ORIENTED_EDGE('',*,*,#271,.T.);
#188=ORIENTED_EDGE('',*,*,#272,.F.);
#189=ORIENTED_EDGE('',*,*,#273,.F.);
#190=ORIENTED_EDGE('',*,*,#270,.T.);
#191=ORIENTED_EDGE('',*,*,#274,.F.);
#192=ORIENTED_EDGE('',*,*,#275,.F.);
#193=ORIENTED_EDGE('',*,*,#276,.T.);
#194=ORIENTED_EDGE('',*,*,#276,.F.);
#195=ORIENTED_EDGE('',*,*,#277,.T.);
#196=ORIENTED_EDGE('',*,*,#278,.T.);
#197=ORIENTED_EDGE('',*,*,#277,.F.);
#198=ORIENTED_EDGE('',*,*,#278,.F.);
#199=ORIENTED_EDGE('',*,*,#279,.T.);
#200=ORIENTED_EDGE('',*,*,#271,.F.);
#201=ORIENTED_EDGE('',*,*,#280,.T.);
#202=ORIENTED_EDGE('',*,*,#272,.T.);
#203=ORIENTED_EDGE('',*,*,#274,.T.);
#204=ORIENTED_EDGE('',*,*,#280,.F.);
#205=ORIENTED_EDGE('',*,*,#279,.F.);
#206=ORIENTED_EDGE('',*,*,#273,.T.);
#207=ORIENTED_EDGE('',*,*,#281,.F.);
#208=ORIENTED_EDGE('',*,*,#282,.T.);
#209=ORIENTED_EDGE('',*,*,#283,.F.);
#210=ORIENTED_EDGE('',*,*,#282,.F.);
#211=ORIENTED_EDGE('',*,*,#275,.T.);
#212=ORIENTED_EDGE('',*,*,#283,.T.);
#213=ORIENTED_EDGE('',*,*,#284,.T.);
#214=ORIENTED_EDGE('',*,*,#285,.T.);
#215=ORIENTED_EDGE('',*,*,#284,.F.);
#216=ORIENTED_EDGE('',*,*,#286,.F.);
#217=ORIENTED_EDGE('',*,*,#285,.F.);
#218=ORIENTED_EDGE('',*,*,#287,.T.);
#219=ORIENTED_EDGE('',*,*,#288,.T.);
#220=ORIENTED_EDGE('',*,*,#289,.T.);
#221=ORIENTED_EDGE('',*,*,#290,.T.);
#222=ORIENTED_EDGE('',*,*,#286,.T.);
#223=ORIENTED_EDGE('',*,*,#291,.F.);
#224=ORIENTED_EDGE('',*,*,#287,.F.);
#225=ORIENTED_EDGE('',*,*,#292,.T.);
#226=ORIENTED_EDGE('',*,*,#293,.T.);
#227=ORIENTED_EDGE('',*,*,#294,.F.);
#228=ORIENTED_EDGE('',*,*,#288,.F.);
#229=ORIENTED_EDGE('',*,*,#291,.T.);
#230=ORIENTED_EDGE('',*,*,#295,.T.);
#231=ORIENTED_EDGE('',*,*,#296,.F.);
#232=ORIENTED_EDGE('',*,*,#289,.F.);
#233=ORIENTED_EDGE('',*,*,#294,.T.);
#234=ORIENTED_EDGE('',*,*,#297,.T.);
#235=ORIENTED_EDGE('',*,*,#292,.F.);
#236=ORIENTED_EDGE('',*,*,#290,.F.);
#237=ORIENTED_EDGE('',*,*,#296,.T.);
#238=ORIENTED_EDGE('',*,*,#298,.T.);
#239=ORIENTED_EDGE('',*,*,#298,.F.);
#240=ORIENTED_EDGE('',*,*,#297,.F.);
#241=ORIENTED_EDGE('',*,*,#295,.F.);
#242=ORIENTED_EDGE('',*,*,#293,.F.);
#243=ORIENTED_EDGE('',*,*,#281,.T.);
#244=VERTEX_POINT('',#453);
#245=VERTEX_POINT('',#455);
#246=VERTEX_POINT('',#458);
#247=VERTEX_POINT('',#460);
#248=VERTEX_POINT('',#463);
#249=VERTEX_POINT('',#466);
#250=VERTEX_POINT('',#468);
#251=VERTEX_POINT('',#471);
#252=VERTEX_POINT('',#474);
#253=VERTEX_POINT('',#477);
#254=VERTEX_POINT('',#479);
#255=VERTEX_POINT('',#482);
#256=VERTEX_POINT('',#487);
#257=VERTEX_POINT('',#489);
#258=VERTEX_POINT('',#492);
#259=VERTEX_POINT('',#496);
#260=VERTEX_POINT('',#499);
#261=VERTEX_POINT('',#502);
#262=VERTEX_POINT('',#505);
#263=VERTEX_POINT('',#506);
#264=VERTEX_POINT('',#508);
#265=VERTEX_POINT('',#510);
#266=VERTEX_POINT('',#514);
#267=VERTEX_POINT('',#516);
#268=VERTEX_POINT('',#520);
#269=VERTEX_POINT('',#524);
#270=EDGE_CURVE('',#244,#244,#299,.T.);
#271=EDGE_CURVE('',#245,#245,#300,.T.);
#272=EDGE_CURVE('',#246,#246,#301,.T.);
#273=EDGE_CURVE('',#247,#247,#302,.T.);
#274=EDGE_CURVE('',#248,#248,#303,.T.);
#275=EDGE_CURVE('',#249,#249,#304,.T.);
#276=EDGE_CURVE('',#250,#250,#305,.T.);
#277=EDGE_CURVE('',#251,#251,#306,.T.);
#278=EDGE_CURVE('',#252,#252,#307,.T.);
#279=EDGE_CURVE('',#253,#253,#308,.T.);
#280=EDGE_CURVE('',#255,#255,#309,.T.);
#281=EDGE_CURVE('',#256,#256,#310,.T.);
#282=EDGE_CURVE('',#257,#257,#311,.T.);
#283=EDGE_CURVE('',#258,#258,#312,.T.);
#284=EDGE_CURVE('',#259,#259,#313,.T.);
#285=EDGE_CURVE('',#260,#260,#314,.T.);
#286=EDGE_CURVE('',#261,#261,#315,.T.);
#287=EDGE_CURVE('',#262,#263,#34,.T.);
#288=EDGE_CURVE('',#263,#264,#35,.T.);
#289=EDGE_CURVE('',#264,#265,#36,.T.);
#290=EDGE_CURVE('',#265,#262,#37,.T.);
#291=EDGE_CURVE('',#263,#266,#38,.T.);
#292=EDGE_CURVE('',#262,#267,#39,.T.);
#293=EDGE_CURVE('',#267,#266,#40,.T.);
#294=EDGE_CURVE('',#264,#268,#41,.T.);
#295=EDGE_CURVE('',#266,#268,#42,.T.);
#296=EDGE_CURVE('',#265,#269,#43,.T.);
#297=EDGE_CURVE('',#268,#269,#44,.T.);
#298=EDGE_CURVE('',#269,#267,#45,.T.);
#299=CIRCLE('',#317,5.5);
#300=CIRCLE('',#318,5.5);
#301=CIRCLE('',#320,7.25);
#302=CIRCLE('',#321,7.25);
#303=CIRCLE('',#323,9.5);
#304=CIRCLE('',#325,6.731);
#305=CIRCLE('',#326,9.5);
#306=CIRCLE('',#328,9.5);
#307=CIRCLE('',#330,8.25);
#308=CIRCLE('',#332,8.25);
#309=CIRCLE('',#335,9.5);
#310=CIRCLE('',#339,4.6);
#311=CIRCLE('',#340,4.6);
#312=CIRCLE('',#342,6.731);
#313=CIRCLE('',#345,1.00000000000001);
#314=CIRCLE('',#347,2.00000000000001);
#315=CIRCLE('',#349,2.00000000000001);
#316=AXIS2_PLACEMENT_3D('',#451,#357,#358);
#317=AXIS2_PLACEMENT_3D('',#452,#359,#360);
#318=AXIS2_PLACEMENT_3D('',#454,#361,#362);
#319=AXIS2_PLACEMENT_3D('',#456,#363,#364);
#320=AXIS2_PLACEMENT_3D('',#457,#365,#366);
#321=AXIS2_PLACEMENT_3D('',#459,#367,#368);
#322=AXIS2_PLACEMENT_3D('',#461,#369,#370);
#323=AXIS2_PLACEMENT_3D('',#462,#371,#372);
#324=AXIS2_PLACEMENT_3D('',#464,#373,#374);
#325=AXIS2_PLACEMENT_3D('',#465,#375,#376);
#326=AXIS2_PLACEMENT_3D('',#467,#377,#378);
#327=AXIS2_PLACEMENT_3D('',#469,#379,#380);
#328=AXIS2_PLACEMENT_3D('',#470,#381,#382);
#329=AXIS2_PLACEMENT_3D('',#472,#383,#384);
#330=AXIS2_PLACEMENT_3D('',#473,#385,#386);
#331=AXIS2_PLACEMENT_3D('',#475,#387,#388);
#332=AXIS2_PLACEMENT_3D('',#476,#389,#390);
#333=AXIS2_PLACEMENT_3D('',#478,#391,#392);
#334=AXIS2_PLACEMENT_3D('',#480,#393,#394);
#335=AXIS2_PLACEMENT_3D('',#481,#395,#396);
#336=AXIS2_PLACEMENT_3D('',#483,#397,#398);
#337=AXIS2_PLACEMENT_3D('',#484,#399,#400);
#338=AXIS2_PLACEMENT_3D('',#485,#401,#402);
#339=AXIS2_PLACEMENT_3D('',#486,#403,#404);
#340=AXIS2_PLACEMENT_3D('',#488,#405,#406);
#341=AXIS2_PLACEMENT_3D('',#490,#407,#408);
#342=AXIS2_PLACEMENT_3D('',#491,#409,#410);
#343=AXIS2_PLACEMENT_3D('',#493,#411,#412);
#344=AXIS2_PLACEMENT_3D('',#494,#413,#414);
#345=AXIS2_PLACEMENT_3D('',#495,#415,#416);
#346=AXIS2_PLACEMENT_3D('',#497,#417,#418);
#347=AXIS2_PLACEMENT_3D('',#498,#419,#420);
#348=AXIS2_PLACEMENT_3D('',#500,#421,#422);
#349=AXIS2_PLACEMENT_3D('',#501,#423,#424);
#350=AXIS2_PLACEMENT_3D('',#503,#425,#426);
#351=AXIS2_PLACEMENT_3D('',#512,#431,#432);
#352=AXIS2_PLACEMENT_3D('',#518,#436,#437);
#353=AXIS2_PLACEMENT_3D('',#522,#440,#441);
#354=AXIS2_PLACEMENT_3D('',#526,#444,#445);
#355=AXIS2_PLACEMENT_3D('',#528,#447,#448);
#356=AXIS2_PLACEMENT_3D('',#529,#449,#450);
#357=DIRECTION('',(0.,0.,1.));
#358=DIRECTION('',(1.,0.,0.));
#359=DIRECTION('',(1.,0.,0.));
#360=DIRECTION('',(0.,0.,1.));
#361=DIRECTION('',(1.,0.,0.));
#362=DIRECTION('',(0.,0.,1.));
#363=DIRECTION('',(1.,0.,0.));
#364=DIRECTION('',(0.,0.,1.));
#365=DIRECTION('',(-1.,0.,0.));
#366=DIRECTION('',(0.,0.,-1.));
#367=DIRECTION('',(1.,0.,0.));
#368=DIRECTION('',(0.,0.,1.));
#369=DIRECTION('',(1.,0.,0.));
#370=DIRECTION('',(0.,0.,1.));
#371=DIRECTION('',(1.,0.,0.));
#372=DIRECTION('',(0.,0.,1.));
#373=DIRECTION('',(-1.,0.,0.));
#374=DIRECTION('',(0.,0.,-1.));
#375=DIRECTION('',(1.,0.,0.));
#376=DIRECTION('',(0.,0.,-1.));
#377=DIRECTION('',(1.,0.,0.));
#378=DIRECTION('',(0.,0.,-1.));
#379=DIRECTION('',(1.,0.,0.));
#380=DIRECTION('',(0.,0.,1.));
#381=DIRECTION('',(1.,0.,0.));
#382=DIRECTION('',(0.,0.,1.));
#383=DIRECTION('',(1.,0.,0.));
#384=DIRECTION('',(0.,0.,1.));
#385=DIRECTION('',(1.,0.,0.));
#386=DIRECTION('',(0.,0.,-1.));
#387=DIRECTION('',(-1.,0.,0.));
#388=DIRECTION('',(0.,0.,-1.));
#389=DIRECTION('',(1.,0.,0.));
#390=DIRECTION('',(0.,0.,1.));
#391=DIRECTION('',(1.,0.,0.));
#392=DIRECTION('',(0.,0.,1.));
#393=DIRECTION('',(-1.,0.,0.));
#394=DIRECTION('',(4.68456058453413E-17,0.,-1.));
#395=DIRECTION('',(1.,0.,0.));
#396=DIRECTION('',(0.,0.,1.));
#397=DIRECTION('',(-1.,0.,0.));
#398=DIRECTION('',(-5.98420975288867E-17,0.,-1.));
#399=DIRECTION('',(1.,0.,0.));
#400=DIRECTION('',(0.,0.,1.));
#401=DIRECTION('',(1.,0.,0.));
#402=DIRECTION('',(2.03918794499039E-17,0.,1.));
#403=DIRECTION('',(1.,0.,0.));
#404=DIRECTION('',(0.,0.,-1.));
#405=DIRECTION('',(1.,0.,0.));
#406=DIRECTION('',(0.,1.,-6.12323399573677E-17));
#407=DIRECTION('',(1.,0.,0.));
#408=DIRECTION('',(0.,0.,-1.));
#409=DIRECTION('',(-1.,0.,0.));
#410=DIRECTION('',(0.,-1.,0.));
#411=DIRECTION('',(-1.,0.,0.));
#412=DIRECTION('',(0.,1.,0.));
#413=DIRECTION('',(-1.,0.,0.));
#414=DIRECTION('',(0.,1.,0.));
#415=DIRECTION('',(1.,-9.18457753216413E-17,0.));
#416=DIRECTION('',(0.,1.,0.));
#417=DIRECTION('',(1.,-9.18457753216413E-17,0.));
#418=DIRECTION('',(9.0205620750794E-17,1.,0.));
#419=DIRECTION('',(1.,-9.18457753216413E-17,0.));
#420=DIRECTION('',(0.,0.999999999999999,0.));
#421=DIRECTION('',(-1.,9.18457753216413E-17,0.));
#422=DIRECTION('',(-6.93196194196527E-17,-1.,0.));
#423=DIRECTION('',(-1.,8.24134158876775E-17,0.));
#424=DIRECTION('',(1.0842021724855E-16,1.,0.));
#425=DIRECTION('',(1.,-9.18457753216413E-17,0.));
#426=DIRECTION('',(0.,1.,0.));
#427=DIRECTION('',(1.29967715705267E-32,1.5770213417971E-16,-1.));
#428=DIRECTION('',(8.24134158876775E-17,1.,2.36553201269565E-16));
#429=DIRECTION('',(0.,0.,1.));
#430=DIRECTION('',(-8.24134158876775E-17,-1.,0.));
#431=DIRECTION('',(1.,-8.24134158876775E-17,0.));
#432=DIRECTION('',(8.23993651088983E-17,1.,0.));
#433=DIRECTION('',(-1.,0.,0.));
#434=DIRECTION('',(-1.,0.,0.));
#435=DIRECTION('',(-1.07239280994289E-31,1.5770213417971E-16,-1.));
#436=DIRECTION('',(0.,1.,1.5770213417971E-16));
#437=DIRECTION('',(0.,-1.59594559789866E-16,1.));
#438=DIRECTION('',(-1.,0.,0.));
#439=DIRECTION('',(8.24134158876776E-17,1.,2.36553201269565E-16));
#440=DIRECTION('',(0.,-2.36553201269565E-16,1.));
#441=DIRECTION('',(0.,-1.,-2.3635607360184E-16));
#442=DIRECTION('',(-1.,0.,0.));
#443=DIRECTION('',(0.,0.,1.));
#444=DIRECTION('',(0.,-1.,0.));
#445=DIRECTION('',(0.,0.,-1.));
#446=DIRECTION('',(-8.24134158876775E-17,-1.,0.));
#447=DIRECTION('',(0.,0.,-1.));
#448=DIRECTION('',(0.,1.,0.));
#449=DIRECTION('',(1.,0.,0.));
#450=DIRECTION('',(0.,0.,1.));
#451=CARTESIAN_POINT('',(0.,0.,0.));
#452=CARTESIAN_POINT('',(-26.5000000000016,38.2000000000001,0.));
#453=CARTESIAN_POINT('',(-26.5000000000016,38.2000000000001,5.5));
#454=CARTESIAN_POINT('',(-8.30043030951541,38.2000000000001,0.));
#455=CARTESIAN_POINT('',(-8.30043030951541,38.2000000000001,5.5));
#456=CARTESIAN_POINT('',(10.7999999999984,38.2000000000001,0.));
#457=CARTESIAN_POINT('',(-24.200961894325,38.2000000000001,0.));
#458=CARTESIAN_POINT('',(-24.200961894325,38.2000000000001,-7.25));
#459=CARTESIAN_POINT('',(-7.50000000000163,38.2000000000001,0.));
#460=CARTESIAN_POINT('',(-7.50000000000163,38.2000000000001,7.25));
#461=CARTESIAN_POINT('',(10.7999999999984,38.2000000000001,0.));
#462=CARTESIAN_POINT('',(-26.5000000000016,38.2000000000001,0.));
#463=CARTESIAN_POINT('',(-26.5000000000016,38.2000000000001,9.5));
#464=CARTESIAN_POINT('',(-26.5000000000016,38.2000000000001,7.25));
#465=CARTESIAN_POINT('',(10.7999999999984,38.2000000000001,0.));
#466=CARTESIAN_POINT('',(10.7999999999984,38.2000000000001,-6.731));
#467=CARTESIAN_POINT('',(10.7999999999984,38.2000000000001,0.));
#468=CARTESIAN_POINT('',(10.7999999999984,38.2000000000001,-9.5));
#469=CARTESIAN_POINT('',(10.7999999999984,38.2000000000001,8.075));
#470=CARTESIAN_POINT('',(-3.30000000000163,38.2000000000001,0.));
#471=CARTESIAN_POINT('',(-3.30000000000163,38.2000000000001,9.5));
#472=CARTESIAN_POINT('',(10.7999999999984,38.2000000000001,0.));
#473=CARTESIAN_POINT('',(-3.30000000000163,38.2000000000001,0.));
#474=CARTESIAN_POINT('',(-3.30000000000163,38.2000000000001,-8.25));
#475=CARTESIAN_POINT('',(-3.30000000000163,38.2000000000001,9.5));
#476=CARTESIAN_POINT('',(-5.80000000000163,38.2000000000001,0.));
#477=CARTESIAN_POINT('',(-5.80000000000163,38.2000000000001,8.25));
#478=CARTESIAN_POINT('',(10.7999999999984,38.2000000000001,0.));
#479=CARTESIAN_POINT('',(-4.99569690486383,38.2000000000001,0.));
#480=CARTESIAN_POINT('',(-6.25750420482171,38.2000000000001,0.));
#481=CARTESIAN_POINT('',(-25.5000000000016,38.2000000000001,0.));
#482=CARTESIAN_POINT('',(-25.5000000000016,38.2000000000001,9.5));
#483=CARTESIAN_POINT('',(-24.200961894325,38.2000000000001,0.));
#484=CARTESIAN_POINT('',(-26.5000000000016,38.2000000000001,0.));
#485=CARTESIAN_POINT('',(-7.50000000000163,38.2000000000001,0.));
#486=CARTESIAN_POINT('',(-0.200000000001631,38.2000000000001,0.));
#487=CARTESIAN_POINT('',(-0.200000000001631,38.2000000000001,-4.6));
#488=CARTESIAN_POINT('',(26.3999999999984,38.2000000000001,0.));
#489=CARTESIAN_POINT('',(26.3999999999984,42.8000000000001,-2.81668763803891E-16));
#490=CARTESIAN_POINT('',(-0.60000000000163,38.2000000000001,0.));
#491=CARTESIAN_POINT('',(26.3999999999984,38.2000000000001,0.));
#492=CARTESIAN_POINT('',(26.3999999999984,31.4690000000001,0.));
#493=CARTESIAN_POINT('',(26.3999999999984,38.2000000000001,0.));
#494=CARTESIAN_POINT('',(26.9206999999984,38.2000000000001,0.));
#495=CARTESIAN_POINT('',(26.4999999999984,38.2000000000001,0.));
#496=CARTESIAN_POINT('',(26.4999999999984,39.2000000000001,0.));
#497=CARTESIAN_POINT('',(26.4999999999984,38.2000000000001,0.));
#498=CARTESIAN_POINT('',(25.4999999999984,38.2000000000001,0.));
#499=CARTESIAN_POINT('',(25.4999999999984,40.2000000000001,0.));
#500=CARTESIAN_POINT('',(26.4999999999984,38.2000000000001,0.));
#501=CARTESIAN_POINT('',(1.29999999999837,38.2000000000001,0.));
#502=CARTESIAN_POINT('',(1.29999999999837,40.2000000000001,0.));
#503=CARTESIAN_POINT('',(-8.00000000000163,38.2000000000001,0.));
#504=CARTESIAN_POINT('',(1.29999999999837,35.4500000000001,2.75));
#505=CARTESIAN_POINT('',(1.29999999999837,35.4500000000001,2.75));
#506=CARTESIAN_POINT('',(1.29999999999837,35.4500000000001,-2.75));
#507=CARTESIAN_POINT('',(1.29999999999837,38.2000000000001,-2.75));
#508=CARTESIAN_POINT('',(1.29999999999837,40.95,-2.75));
#509=CARTESIAN_POINT('',(1.29999999999837,40.95,-2.75));
#510=CARTESIAN_POINT('',(1.29999999999837,40.95,2.75));
#511=CARTESIAN_POINT('',(1.29999999999837,40.95,2.75));
#512=CARTESIAN_POINT('',(1.29999999999837,38.2000000000001,0.));
#513=CARTESIAN_POINT('',(1.29999999999837,35.4500000000001,-2.75));
#514=CARTESIAN_POINT('',(-0.200000000001631,35.4500000000001,-2.75));
#515=CARTESIAN_POINT('',(1.29999999999837,35.4500000000001,2.75));
#516=CARTESIAN_POINT('',(-0.200000000001629,35.4500000000001,2.75));
#517=CARTESIAN_POINT('',(-0.200000000001629,35.4500000000001,2.75));
#518=CARTESIAN_POINT('',(1.29999999999837,35.4500000000001,2.75));
#519=CARTESIAN_POINT('',(1.29999999999837,40.95,-2.75));
#520=CARTESIAN_POINT('',(-0.200000000001629,40.95,-2.75));
#521=CARTESIAN_POINT('',(-0.200000000001629,35.4500000000001,-2.75));
#522=CARTESIAN_POINT('',(1.29999999999837,35.4500000000001,-2.75));
#523=CARTESIAN_POINT('',(1.29999999999837,40.95,2.75));
#524=CARTESIAN_POINT('',(-0.200000000001629,40.95,2.75));
#525=CARTESIAN_POINT('',(-0.200000000001629,40.95,-2.75));
#526=CARTESIAN_POINT('',(1.29999999999837,40.95,-2.75));
#527=CARTESIAN_POINT('',(-0.200000000001629,40.95,2.75));
#528=CARTESIAN_POINT('',(1.29999999999837,40.95,2.75));
#529=CARTESIAN_POINT('',(-0.200000000001631,38.2000000000001,2.5));
#530=MECHANICAL_DESIGN_GEOMETRIC_PRESENTATION_REPRESENTATION('',(#24),#531);
#531=(
GEOMETRIC_REPRESENTATION_CONTEXT(3)
GLOBAL_UNCERTAINTY_ASSIGNED_CONTEXT((#532))
GLOBAL_UNIT_ASSIGNED_CONTEXT((#538,#534,#533))
REPRESENTATION_CONTEXT('n 02 100 61xx 002nxc001-01',
'TOP_LEVEL_ASSEMBLY_PART')
);
#532=UNCERTAINTY_MEASURE_WITH_UNIT(LENGTH_MEASURE(2.E-5),#538,
'DISTANCE_ACCURACY_VALUE','Maximum Tolerance applied to model');
#533=(
NAMED_UNIT(*)
SI_UNIT($,.STERADIAN.)
SOLID_ANGLE_UNIT()
);
#534=(
CONVERSION_BASED_UNIT('DEGREE',#536)
NAMED_UNIT(#535)
PLANE_ANGLE_UNIT()
);
#535=DIMENSIONAL_EXPONENTS(0.,0.,0.,0.,0.,0.,0.);
#536=PLANE_ANGLE_MEASURE_WITH_UNIT(PLANE_ANGLE_MEASURE(0.0174532925),#537);
#537=(
NAMED_UNIT(*)
PLANE_ANGLE_UNIT()
SI_UNIT($,.RADIAN.)
);
#538=(
LENGTH_UNIT()
NAMED_UNIT(*)
SI_UNIT(.MILLI.,.METRE.)
);
ENDSEC;
END-ISO-10303-21;
